0
SECTION
2
HEADER
9
$EXTMIN
10
0
20
0
9
$EXTMAX
10
24
20
12.375
0
ENDSEC
0
SECTION
2
TABLES
0
TABLE
2
LTYPE
70
1
0
LTYPE
2
0
70
0
3
Solid Line
72
65
73
0
40
0
0
ENDTAB
0
TABLE
2
LAYER
70
1
0
LAYER
2
1
70
0
62
7
6
0
0
ENDTAB
0
ENDSEC
0
SECTION
2
BLOCKS
0
ENDSEC
0
SECTION
2
ENTITIES
0
LWPOLYLINE
5
A8
100
AcDbEntity
8
0
100
AcDbPolyline
90
47
70
1
43
0
10
10.43815
20
11.25044
42
-0.17503
10
11.12815
20
10.89044
42
-0.32431
10
11.33815
20
9.260435
42
-0.18833
10
10.41815
20
8.450436
42
-0.09034
10
10.27815
20
8.430435
42
0.10515
10
5.469146
20
8.520435
10
5.449146
20
8.540436
42
0.09003
10
5.359146
20
8.660436
10
5.249146
20
8.730435
10
5.239146
20
8.750436
10
5.239146
20
8.780436
42
0.21311
10
4.989146
20
10.21044
10
4.999146
20
10.23044
10
5.009146
20
10.23044
10
5.069146
20
10.21044
10
5.369146
20
10.02044
10
5.599146
20
9.860435
42
0.35673
10
7.839146
20
9.640435
42
0.12906
10
8.339146
20
10.25044
10
8.359146
20
10.27044
10
8.399146
20
10.28044
10
8.428145
20
10.27044
10
8.439146
20
10.26044
10
8.449146
20
10.25044
42
0.20335
10
9.079145
20
9.220435
42
0.22135
10
10.19815
20
9.010435
42
0.20414
10
10.89815
20
9.580436
42
0.30392
10
10.77815
20
10.64044
42
0.22539
10
10.13815
20
10.88043
42
0.16593
10
9.768146
20
10.69044
42
0.33687
10
9.668146
20
10.07044
42
0.15553
10
9.838146
20
9.920436
42
0.12365
10
9.978146
20
9.870436
10
10.08815
20
9.880435
42
0.08277
10
10.23815
20
9.950436
42
0.18211
10
10.37815
20
10.14044
10
10.38815
20
10.26044
10
10.39815
20
10.28044
10
10.40815
20
10.29044
10
10.42815
20
10.29044
10
10.43815
20
10.28044
42
-0.08873
10
10.47815
20
10.15044
10
10.46815
20
10.04044
42
-0.10943
10
10.41815
20
9.910436
42
-0.30121
10
9.898146
20
9.670436
42
-0.41097
10
9.328146
20
10.44044
42
-0.20101
10
9.658146
20
11.04044
42
-0.20418
0
LWPOLYLINE
5
A8
100
AcDbEntity
8
0
100
AcDbPolyline
90
40
70
1
43
0
10
13.81815
20
11.25044
42
-0.28522
10
14.62815
20
10.61044
42
-0.19794
10
14.58815
20
10.03044
42
-0.26434
10
14.03815
20
9.660436
42
-0.35358
10
13.51815
20
10.04044
10
13.50815
20
10.17044
42
-0.0896
10
13.55815
20
10.31044
10
13.57815
20
10.33044
10
13.59815
20
10.33044
10
13.60815
20
10.32044
10
13.61815
20
10.30044
42
0.81616
10
14.29815
20
10.06044
42
0.36217
10
14.22815
20
10.68044
42
0.32074
10
13.48815
20
10.82044
42
0.3087
10
12.98815
20
10.01044
42
0.22623
10
13.38815
20
9.230435
42
0.26702
10
14.58815
20
9.050435
42
0.23732
10
15.48815
20
10.01044
10
15.54815
20
10.28044
10
15.56815
20
10.31044
10
15.58815
20
10.32044
10
15.60815
20
10.32044
10
15.62815
20
10.31044
42
0.33892
10
17.31715
20
9.350435
42
0.14003
10
18.21715
20
9.710436
10
18.46715
20
9.910436
10
18.67715
20
10.06044
10
18.98715
20
10.23044
10
18.99715
20
10.23044
10
19.00714
20
10.21044
42
0.21461
10
18.75714
20
8.770435
10
18.75714
20
8.740436
10
18.74715
20
8.720435
10
18.66715
20
8.670436
10
18.62715
20
8.620436
10
18.55715
20
8.520435
42
0.10255
10
13.66815
20
8.430435
42
-0.09258
10
13.50815
20
8.470435
42
-0.33177
10
12.49815
20
10.12044
42
-0.23844
10
13.17815
20
11.13043
42
-0.14905
0
LWPOLYLINE
5
A8
100
AcDbEntity
8
0
100
AcDbPolyline
90
83
70
1
43
0
10
2.559146
20
10.06044
42
-0.20397
10
4.189146
20
9.190435
10
4.209146
20
9.180435
10
4.229146
20
9.190435
10
4.259146
20
9.220435
42
0.13181
10
4.339146
20
9.410436
10
4.339146
20
9.530436
10
4.319146
20
9.600435
10
4.319146
20
9.620436
10
4.339146
20
9.620436
42
-0.09128
10
4.729146
20
9.150435
10
4.809146
20
9.000436
42
-0.05579
10
4.909146
20
8.740436
10
4.899146
20
8.720435
10
4.819146
20
8.640435
42
0.47716
10
4.889146
20
8.050435
10
4.999146
20
7.990436
10
5.019146
20
7.980435
42
-0.24986
10
4.069146
20
6.210435
10
4.089146
20
6.180436
42
-0.2469
10
5.019146
20
4.401435
10
5.009146
20
4.380435
10
4.899146
20
4.321435
42
0.47564
10
4.849146
20
3.731436
10
4.899146
20
3.681435
10
4.899146
20
3.661435
10
4.899146
20
3.631435
42
-0.14279
10
4.319146
20
2.771435
10
4.309146
20
2.791435
42
0.2243
10
4.279146
20
3.151435
10
4.239146
20
3.201436
10
4.209146
20
3.221436
10
4.179146
20
3.201436
42
-0.22298
10
2.409146
20
2.331435
42
-0.13745
10
2.179146
20
2.411435
42
-0.36337
10
1.559146
20
4.430436
42
-0.32049
10
2.779146
20
5.070436
42
-0.29383
10
3.509146
20
4.390435
42
-0.111
10
3.489146
20
3.971436
42
-0.27189
10
3.019146
20
3.541435
10
2.929146
20
3.541435
42
-0.1608
10
2.659146
20
3.601435
10
2.649146
20
3.621435
10
2.659146
20
3.641435
10
2.679146
20
3.661435
10
2.719146
20
3.671435
42
0.1322
10
2.969146
20
3.721436
42
0.14648
10
3.219146
20
3.981436
42
0.39702
10
2.949146
20
4.641436
42
0.31091
10
2.189146
20
4.530436
42
0.22838
10
1.909146
20
3.921435
42
0.29184
10
2.469146
20
3.001436
42
0.28686
10
3.789146
20
3.111435
42
0.23959
10
4.399146
20
4.330435
42
0.24486
10
3.679146
20
5.790435
42
0.09549
10
2.949146
20
6.150435
10
2.939146
20
6.160436
10
2.919146
20
6.190435
10
2.929146
20
6.230435
10
2.939146
20
6.250435
10
2.959146
20
6.270435
42
0.16866
10
4.079146
20
7.030436
42
0.26621
10
4.249146
20
8.730435
42
0.32552
10
2.849146
20
9.530436
42
0.30583
10
1.929146
20
8.730435
42
0.11805
10
1.939146
20
8.250436
42
0.23692
10
2.439146
20
7.720436
42
0.09138
10
2.759146
20
7.690435
42
0.10761
10
2.999146
20
7.780436
42
0.66283
10
2.889146
20
8.720435
10
2.809146
20
8.730435
10
2.779146
20
8.750436
10
2.749146
20
8.790436
10
2.739146
20
8.820436
10
2.739146
20
8.840435
10
2.759146
20
8.850435
10
2.829146
20
8.870436
42
-0.33146
10
3.479146
20
8.470435
42
-0.33771
10
3.159146
20
7.500435
42
-0.23147
10
2.349146
20
7.350435
42
-0.30378
10
1.459146
20
8.310435
42
-0.32236
10
2.269146
20
10.04044
42
-0.09154
10
2.409146
20
10.07044
0
LWPOLYLINE
5
A8
100
AcDbEntity
8
0
100
AcDbPolyline
90
83
70
1
43
0
10
21.70715
20
10.05044
42
-0.38576
10
22.43715
20
8.000436
42
-0.28529
10
21.37715
20
7.310435
42
-0.28377
10
20.52715
20
7.880435
42
-0.24941
10
20.57715
20
8.580436
42
-0.22776
10
21.06715
20
8.870436
10
21.17715
20
8.870436
10
21.29715
20
8.830436
10
21.38715
20
8.780436
10
21.41715
20
8.750436
10
21.41715
20
8.730435
10
21.40715
20
8.710436
10
21.38715
20
8.700436
10
21.35715
20
8.700436
10
21.26715
20
8.730435
10
21.12715
20
8.730435
42
0.74138
10
21.09715
20
7.730435
42
0.31859
10
21.88715
20
7.950436
42
0.30755
10
21.98715
20
8.960436
42
0.17725
10
21.41715
20
9.450436
42
0.25628
10
20.22715
20
9.300435
42
0.25971
10
19.59715
20
7.970436
42
0.22018
10
20.26715
20
6.660436
42
0.10104
10
21.06715
20
6.260436
10
21.07715
20
6.240436
10
21.08715
20
6.210435
10
21.07715
20
6.180436
10
21.06715
20
6.160436
10
21.04715
20
6.150435
42
0.24087
10
19.70715
20
4.970436
42
0.1893
10
19.72715
20
3.701436
42
0.2651
10
20.84715
20
2.871435
42
0.2536
10
21.88715
20
3.301435
42
0.33132
10
21.92715
20
4.401435
42
0.29328
10
21.20715
20
4.701436
42
0.34653
10
20.74715
20
4.191435
42
0.18959
10
20.84715
20
3.881435
42
0.17164
10
21.11715
20
3.691435
42
0.06142
10
21.29715
20
3.681435
10
21.34715
20
3.691435
10
21.36715
20
3.691435
10
21.38715
20
3.671435
10
21.38715
20
3.651435
10
21.38715
20
3.631435
42
-0.08494
10
21.25714
20
3.561435
42
-0.19556
10
20.81715
20
3.601435
10
20.66715
20
3.701436
10
20.57715
20
3.821435
42
-0.24619
10
20.51715
20
4.530436
42
-0.39775
10
21.74715
20
5.020435
42
-0.2941
10
22.55715
20
3.981436
42
-0.29849
10
21.74715
20
2.381435
42
-0.14743
10
21.48715
20
2.331435
42
-0.21189
10
19.79715
20
3.211436
10
19.77715
20
3.221436
10
19.76715
20
3.221436
42
0.29914
10
19.69715
20
2.771435
10
19.69715
20
2.751436
10
19.67715
20
2.751436
42
-0.15166
10
19.07715
20
3.661435
10
19.08715
20
3.691435
10
19.15715
20
3.781435
42
0.44742
10
19.06715
20
4.340436
10
18.98715
20
4.380435
10
18.97715
20
4.401435
42
-0.2448
10
19.88715
20
6.170435
10
19.90715
20
6.190435
10
19.91715
20
6.210435
10
19.90715
20
6.230435
42
-0.24036
10
18.97715
20
7.960435
10
18.98715
20
7.980435
10
19.01715
20
7.990436
42
0.5774
10
19.17715
20
8.640435
10
19.08715
20
8.710436
10
19.07715
20
8.730435
10
19.08715
20
8.760435
42
-0.14708
10
19.67715
20
9.650435
10
19.69715
20
9.650435
10
19.69715
20
9.630435
42
0.29688
10
19.75714
20
9.190435
10
19.77715
20
9.180435
10
19.79715
20
9.190435
42
-0.2255
10
21.60715
20
10.07044
0
LWPOLYLINE
5
A8
100
AcDbEntity
8
0
100
AcDbPolyline
90
42
70
1
43
0
10
10.35815
20
3.961436
42
-0.07596
10
10.56815
20
3.891435
42
-0.27416
10
11.50815
20
2.511436
42
-0.29801
10
10.75815
20
1.241435
42
-0.28575
10
9.648146
20
1.371435
42
-0.15644
10
9.338146
20
1.851435
42
-0.29115
10
9.588146
20
2.611435
42
-0.16484
10
9.968146
20
2.751436
42
-0.36588
10
10.46815
20
2.351435
42
-0.10579
10
10.45815
20
2.161435
10
10.43815
20
2.131435
10
10.41815
20
2.121435
10
10.39815
20
2.131435
10
10.38815
20
2.141435
42
0.53713
10
9.878146
20
2.501436
42
0.31108
10
9.608146
20
2.121435
10
9.618146
20
1.991435
42
0.10296
10
9.718146
20
1.771435
42
0.38159
10
10.61815
20
1.641436
42
0.30067
10
10.98815
20
2.541435
42
0.29911
10
10.11815
20
3.411435
42
0.38242
10
8.509146
20
2.391435
10
8.459146
20
2.221436
10
8.449146
20
2.141435
10
8.428145
20
2.121435
10
8.419146
20
2.101435
10
8.399146
20
2.101435
42
0.45669
10
5.889146
20
2.771435
10
5.519146
20
2.491436
10
5.309146
20
2.341435
10
5.089146
20
2.211436
10
5.009146
20
2.171435
10
4.999146
20
2.171435
10
4.989146
20
2.191435
42
0.08596
10
5.259146
20
2.811435
42
0.10781
10
5.249146
20
3.611435
10
5.249146
20
3.631435
10
5.269146
20
3.651435
42
0.14623
10
5.439146
20
3.801435
10
5.479146
20
3.861435
10
5.489146
20
3.871435
42
0.1039
10
10.25815
20
3.971436
0
LWPOLYLINE
5
A8
100
AcDbEntity
8
0
100
AcDbPolyline
90
50
70
1
43
0
10
13.68815
20
3.971436
42
0.10167
10
18.49715
20
3.871435
10
18.55715
20
3.781435
10
18.59715
20
3.731436
10
18.65715
20
3.691435
10
18.72715
20
3.651435
10
18.74715
20
3.631435
10
18.74715
20
3.611435
42
0.21079
10
18.99715
20
2.201436
10
19.00714
20
2.181435
10
18.98715
20
2.171435
10
18.97715
20
2.171435
10
18.81715
20
2.261436
10
18.58715
20
2.411435
10
18.36715
20
2.561435
42
0.32069
10
16.30815
20
2.861435
42
0.15772
10
15.67815
20
2.201436
10
15.63815
20
2.101435
10
15.61815
20
2.091435
10
15.59815
20
2.081435
10
15.57815
20
2.081435
10
15.56815
20
2.091435
10
15.54815
20
2.121435
42
0.21872
10
14.87815
20
3.211436
42
0.20277
10
13.84815
20
3.401435
42
0.26901
10
13.02815
20
2.621435
42
0.30621
10
13.33815
20
1.671435
42
0.37469
10
14.25815
20
1.741435
42
0.13134
10
14.38815
20
2.011436
10
14.38815
20
2.151435
42
0.19262
10
14.19815
20
2.461436
10
14.14815
20
2.491436
10
14.04815
20
2.531435
10
13.92815
20
2.531435
42
0.10469
10
13.79815
20
2.481436
10
13.69815
20
2.401435
42
0.17248
10
13.61815
20
2.241436
10
13.60815
20
2.141435
10
13.59815
20
2.121435
10
13.58815
20
2.111435
10
13.56815
20
2.111435
10
13.54815
20
2.121435
42
-0.27972
10
13.58815
20
2.531435
42
-0.32924
10
14.18815
20
2.721436
42
-0.19309
10
14.55815
20
2.421435
42
-0.24062
10
14.60815
20
1.741435
42
-0.38488
10
13.36815
20
1.191435
42
-0.17267
10
12.73815
20
1.661435
42
-0.30296
10
12.72815
20
3.261436
42
-0.16391
10
13.55815
20
3.941435
42
-0.07923
0
LWPOLYLINE
5
A8
100
AcDbEntity
8
0
100
AcDbPolyline
90
32
70
1
43
0
10
5.835146
20
7.823435
10
5.816146
20
7.807436
10
5.798146
20
7.786436
42
0.19461
10
5.391146
20
5.623435
10
5.397146
20
5.592435
42
0.08924
10
5.658146
20
4.829435
10
5.673146
20
4.802435
42
0.1004
10
5.816146
20
4.573435
10
5.835146
20
4.558435
10
5.856146
20
4.548435
10
5.878146
20
4.543436
10
6.133146
20
4.542436
10
6.157146
20
4.545435
42
0.38767
10
6.231146
20
4.635436
10
6.229146
20
4.661436
42
-0.03589
10
6.110146
20
5.116436
10
6.104146
20
5.147436
10
6.046146
20
5.550436
10
6.042146
20
5.581436
10
6.000146
20
6.065435
10
5.998146
20
6.098435
10
5.978146
20
6.576436
10
5.978146
20
6.607435
10
5.976146
20
7.185435
10
5.985146
20
7.377436
10
6.009146
20
7.545435
10
6.039146
20
7.669436
42
0.125
10
6.049146
20
7.730435
10
6.049146
20
7.758435
42
0.09407
10
6.037146
20
7.805436
10
6.024146
20
7.821435
42
0.15224
10
5.855146
20
7.833436
0
LWPOLYLINE
5
A8
100
AcDbEntity
8
0
100
AcDbPolyline
90
38
70
1
43
0
10
7.914146
20
7.828435
10
7.895146
20
7.814435
10
7.880146
20
7.791435
10
7.871146
20
7.762435
42
0.04114
10
7.909146
20
7.481435
10
7.912146
20
7.449435
10
7.920146
20
7.078435
10
7.920146
20
7.047435
10
7.910146
20
6.519435
10
7.908146
20
6.486435
10
7.883146
20
6.033435
10
7.880146
20
6.001435
10
7.844146
20
5.648436
10
7.811146
20
5.391436
10
7.752146
20
5.058435
10
7.745146
20
5.027435
10
7.657146
20
4.674436
10
7.654146
20
4.645435
42
0.41167
10
7.712146
20
4.547435
10
7.734146
20
4.544436
10
8.068146
20
4.542436
10
8.091146
20
4.544436
10
8.113146
20
4.550436
42
0.0637
10
8.150146
20
4.581436
10
8.161146
20
4.607435
42
0.07453
10
8.158146
20
4.760436
10
8.156146
20
4.790435
10
8.162146
20
5.357435
10
8.162146
20
5.389435
10
8.170146
20
6.084435
10
8.170146
20
6.116436
10
8.164145
20
7.609436
10
8.166146
20
7.641436
10
8.168146
20
7.673435
42
0.19168
10
8.163146
20
7.785436
10
8.154146
20
7.806436
10
8.140146
20
7.821435
42
0.12381
10
7.936146
20
7.836435
0
LWPOLYLINE
5
A8
100
AcDbEntity
8
0
100
AcDbPolyline
90
95
70
1
43
0
10
9.378146
20
7.832436
10
9.359146
20
7.822435
10
9.344146
20
7.805436
10
9.336145
20
7.781435
10
9.336145
20
7.752436
10
9.344146
20
7.722435
10
9.357146
20
7.694436
10
9.442146
20
7.569436
10
9.478146
20
7.485435
10
9.495146
20
7.392436
10
9.495146
20
7.293436
10
9.475146
20
7.195436
10
9.464146
20
7.165435
42
-0.08506
10
9.438146
20
7.114436
10
9.422146
20
7.092435
42
-0.38437
10
9.203146
20
7.058435
10
9.184146
20
7.078435
42
-0.07688
10
9.122146
20
7.183435
10
9.111146
20
7.209435
42
0.52
10
8.695146
20
7.373435
10
8.673146
20
7.352436
42
0.15819
10
8.581146
20
7.079435
10
8.579145
20
7.052435
10
8.575146
20
6.688436
10
8.576146
20
6.657435
10
8.577146
20
6.628436
42
0.79085
10
8.613146
20
6.588436
10
8.629146
20
6.602436
42
-0.15065
10
8.966146
20
6.840436
10
8.989146
20
6.843435
42
-0.75451
10
9.218146
20
6.458436
10
9.200146
20
6.437436
42
-0.18819
10
9.122146
20
6.400435
10
9.101146
20
6.399436
42
0.09826
10
8.868146
20
6.387435
10
8.845146
20
6.377436
10
8.822145
20
6.364436
10
8.800146
20
6.348435
10
8.779146
20
6.330435
10
8.723145
20
6.264435
10
8.681146
20
6.183435
10
8.653146
20
6.091435
10
8.635146
20
5.965436
10
8.630146
20
5.772436
42
0.03929
10
8.632146
20
5.703435
10
8.633146
20
5.670435
42
0.05434
10
8.640146
20
5.578435
10
8.660146
20
5.463436
10
8.691146
20
5.377436
10
8.705146
20
5.350435
10
8.721146
20
5.325436
10
8.739146
20
5.302435
10
8.759146
20
5.281435
10
8.781146
20
5.264435
10
8.803145
20
5.249435
10
8.827146
20
5.237435
10
8.852146
20
5.227436
10
8.876146
20
5.221436
10
8.945146
20
5.218435
10
9.007146
20
5.232435
10
9.068146
20
5.264435
10
9.127146
20
5.319436
10
9.177146
20
5.391436
10
9.215146
20
5.480435
10
9.224146
20
5.513435
10
9.232146
20
5.546435
10
9.248146
20
5.676435
10
9.260146
20
5.844435
10
9.266146
20
5.872436
42
-0.50975
10
9.393146
20
5.973435
10
9.415146
20
5.962435
42
-0.16197
10
9.541146
20
5.684435
10
9.553145
20
5.553435
10
9.553145
20
4.879436
10
9.550146
20
4.848435
10
9.512146
20
4.642436
10
9.513145
20
4.613435
10
9.520145
20
4.587435
42
0.10985
10
9.595146
20
4.542436
10
9.619145
20
4.541435
10
9.644146
20
4.541435
42
0.16732
10
9.766146
20
4.544436
10
9.789145
20
4.551435
10
9.810145
20
4.563436
10
9.827146
20
4.584435
10
9.838146
20
4.610435
42
0.0515
10
9.813146
20
4.864436
10
9.811146
20
4.896435
10
9.829145
20
6.503436
10
9.828146
20
6.534435
10
9.808146
20
7.608436
10
9.814146
20
7.701436
42
0.42016
10
9.745146
20
7.836435
10
9.723145
20
7.839436
10
9.400146
20
7.837435
0
LWPOLYLINE
5
A8
100
AcDbEntity
8
0
100
AcDbPolyline
90
73
70
1
43
0
10
10.44615
20
7.834435
10
10.42715
20
7.828435
10
10.41115
20
7.817435
10
10.39815
20
7.802435
10
10.38915
20
7.784435
10
10.38215
20
7.762435
10
10.36115
20
7.622436
42
0.04645
10
10.26615
20
7.215436
10
10.26315
20
7.184435
10
10.25515
20
6.806436
10
10.25515
20
6.774436
10
10.26215
20
6.102436
10
10.26315
20
6.069436
10
10.28715
20
5.648436
10
10.30715
20
5.497436
10
10.33115
20
5.395435
10
10.34315
20
5.362435
10
10.35615
20
5.331436
10
10.37015
20
5.303435
10
10.38715
20
5.279436
10
10.40715
20
5.259436
10
10.43015
20
5.246436
10
10.45515
20
5.240436
10
10.48015
20
5.242435
10
10.50315
20
5.252436
10
10.52315
20
5.267436
10
10.54015
20
5.288435
10
10.55415
20
5.311435
10
10.58815
20
5.396435
10
10.61415
20
5.528435
10
10.62815
20
5.692435
10
10.62815
20
5.881435
10
10.61315
20
6.034435
10
10.58815
20
6.150435
10
10.55415
20
6.266436
42
-0.08887
10
10.54315
20
6.323435
10
10.54115
20
6.350435
42
-0.58828
10
10.77115
20
6.493435
10
10.79615
20
6.478436
42
-0.15475
10
10.95915
20
6.155436
10
10.96415
20
6.122436
42
-0.01714
10
10.97515
20
6.027435
10
10.97715
20
5.996436
10
10.98115
20
4.953435
10
10.97315
20
4.827435
10
10.94915
20
4.702435
42
0.41281
10
11.00215
20
4.545435
10
11.02415
20
4.542436
10
11.49915
20
4.545435
10
11.51915
20
4.550436
10
11.53715
20
4.560435
10
11.54915
20
4.578435
10
11.55615
20
4.601436
42
0.03326
10
11.55115
20
4.653435
10
11.54015
20
4.676435
10
11.52615
20
4.698435
10
11.50915
20
4.718435
42
-0.0315
10
11.42615
20
4.815435
10
11.41215
20
4.836435
42
-0.11238
10
11.21615
20
5.589436
10
11.21315
20
5.621436
10
11.20015
20
5.991436
10
11.19915
20
6.021435
10
11.20715
20
6.361435
42
-0.07302
10
11.40415
20
7.348435
10
11.48015
20
7.493435
10
11.56915
20
7.615436
10
11.62615
20
7.684435
42
0.16193
10
11.65215
20
7.732435
10
11.65915
20
7.757435
42
0.44833
10
11.60815
20
7.836435
10
11.58615
20
7.838436
10
10.46715
20
7.838436
0
LWPOLYLINE
5
A8
100
AcDbEntity
8
0
100
AcDbPolyline
90
101
70
1
43
0
10
12.42415
20
7.832436
10
12.40415
20
7.822435
10
12.38915
20
7.805436
10
12.38115
20
7.781435
10
12.38115
20
7.753436
10
12.39015
20
7.723435
10
12.40515
20
7.694436
10
12.46115
20
7.616436
42
-0.04056
10
12.49615
20
7.565435
10
12.51015
20
7.539435
42
-0.09547
10
12.55515
20
7.404436
10
12.55915
20
7.375435
42
-0.03964
10
12.56315
20
7.316435
10
12.55615
20
7.223435
10
12.53015
20
7.132435
10
12.51715
20
7.105435
10
12.50315
20
7.079435
10
12.48715
20
7.055436
10
12.46915
20
7.034435
10
12.45015
20
7.014435
10
12.43015
20
6.997436
10
12.40815
20
6.983436
10
12.38615
20
6.971436
10
12.36315
20
6.962435
10
12.33915
20
6.956436
10
12.31415
20
6.953435
10
12.29115
20
6.954435
10
12.26815
20
6.958436
10
12.24715
20
6.967435
10
12.22715
20
6.980435
10
12.20915
20
6.997436
10
12.19215
20
7.018435
10
12.17815
20
7.042436
10
12.16715
20
7.068436
10
12.12415
20
7.236435
10
12.11515
20
7.263435
10
12.10415
20
7.289435
42
0.09152
10
12.07615
20
7.338436
10
12.06015
20
7.359436
42
0.58241
10
11.81915
20
7.345436
10
11.80115
20
7.322435
42
0.1313
10
11.67515
20
6.771435
10
11.67515
20
6.738435
10
11.68615
20
6.386436
10
11.68715
20
6.353436
10
11.70615
20
6.003436
10
11.73115
20
5.749435
42
0.14141
10
11.77315
20
5.527435
10
11.80115
20
5.437436
10
11.83815
20
5.358436
10
11.88515
20
5.292436
10
11.90215
20
5.274436
10
11.92115
20
5.259436
10
11.94015
20
5.246436
10
11.96015
20
5.236435
10
11.98115
20
5.229435
10
12.00215
20
5.224435
10
12.02315
20
5.221436
10
12.04315
20
5.222435
10
12.06315
20
5.225435
10
12.08315
20
5.230435
10
12.10215
20
5.238435
10
12.12115
20
5.248435
10
12.13815
20
5.261436
10
12.18515
20
5.314435
10
12.22315
20
5.380435
10
12.23315
20
5.404436
10
12.24215
20
5.429435
10
12.27215
20
5.547435
10
12.29115
20
5.712435
10
12.30215
20
5.838436
42
-0.47671
10
12.45315
20
5.954435
10
12.47115
20
5.937436
42
-0.10661
10
12.54015
20
5.808435
10
12.54715
20
5.780436
42
-0.08063
10
12.52915
20
4.968435
10
12.50015
20
4.881435
10
12.48815
20
4.852436
10
12.47515
20
4.824435
10
12.38715
20
4.673435
42
0.51339
10
12.42515
20
4.546435
10
12.44715
20
4.542436
10
13.06015
20
4.545435
10
13.08215
20
4.550436
10
13.10215
20
4.561435
10
13.11815
20
4.578435
42
0.28014
10
13.05215
20
4.769435
10
13.03715
20
4.790435
42
-0.11759
10
12.82315
20
5.590436
10
12.82115
20
5.622436
10
12.80815
20
5.969435
10
12.80815
20
6.001435
10
12.82115
20
6.480435
42
-0.0558
10
12.98815
20
7.364436
10
13.03715
20
7.475435
10
13.10015
20
7.579435
10
13.18315
20
7.699435
10
13.19415
20
7.725435
42
0.5306
10
13.15215
20
7.836435
10
13.13115
20
7.838436
10
12.44615
20
7.837435
0
LWPOLYLINE
5
A8
100
AcDbEntity
8
0
100
AcDbPolyline
90
44
70
1
43
0
10
13.97815
20
7.831436
10
13.95815
20
7.821435
10
13.94315
20
7.804435
10
13.93415
20
7.781435
42
0.02814
10
13.93915
20
7.730435
10
13.94915
20
7.705435
10
13.96215
20
7.682436
10
13.97715
20
7.660436
42
-0.01637
10
14.05615
20
7.551435
10
14.07115
20
7.527435
42
-0.10163
10
14.30615
20
6.596436
10
14.31015
20
6.563436
10
14.32815
20
6.203435
10
14.32815
20
6.170435
10
14.32615
20
5.816435
42
-0.06075
10
14.19315
20
4.976436
10
14.14515
20
4.869435
10
14.08515
20
4.772436
10
14.03315
20
4.699435
42
0.527
10
14.05615
20
4.547435
10
14.07815
20
4.544436
10
14.45515
20
4.542436
10
14.47815
20
4.544436
10
14.50015
20
4.550436
10
14.51915
20
4.561435
10
14.53515
20
4.578435
10
14.54615
20
4.601436
10
14.55215
20
4.627436
10
14.55315
20
4.656435
10
14.55115
20
4.687436
42
-0.0272
10
14.53615
20
4.871436
10
14.53615
20
4.904436
10
14.57215
20
5.862435
10
14.57215
20
5.895435
10
14.57615
20
6.250435
10
14.57515
20
6.282435
10
14.55615
20
7.530436
10
14.56815
20
7.657435
10
14.57215
20
7.685435
10
14.57615
20
7.713436
42
0.49661
10
14.51415
20
7.836435
10
14.49215
20
7.839436
10
14.02315
20
7.839436
10
14.00015
20
7.837435
0
LWPOLYLINE
5
A8
100
AcDbEntity
8
0
100
AcDbPolyline
90
31
70
1
43
0
10
16.29315
20
7.830435
42
0.20444
10
16.24314
20
7.697435
10
16.24615
20
7.609436
10
16.22015
20
6.691435
10
16.22015
20
6.660436
10
16.22215
20
5.882435
10
16.22215
20
5.851436
10
16.23115
20
5.289435
10
16.23215
20
5.257435
10
16.24415
20
4.783435
10
16.24314
20
4.753436
42
0.18612
10
16.23915
20
4.636436
10
16.24415
20
4.608436
42
0.07238
10
16.26815
20
4.565435
10
16.28615
20
4.552435
42
0.0623
10
16.32815
20
4.542436
10
16.39615
20
4.541435
42
0.3876
10
16.56015
20
4.637435
10
16.56115
20
4.669436
42
0.01785
10
16.55215
20
4.760436
10
16.55015
20
4.790435
10
16.55615
20
5.357435
10
16.55615
20
5.389435
10
16.56415
20
6.084435
10
16.56415
20
6.116436
10
16.55815
20
7.609436
10
16.56015
20
7.641436
42
0.23071
10
16.55715
20
7.785436
10
16.54815
20
7.806436
10
16.53515
20
7.821435
42
0.10182
10
16.31315
20
7.836435
0
LWPOLYLINE
5
A8
100
AcDbEntity
8
0
100
AcDbPolyline
90
95
70
1
43
0
10
17.77215
20
7.832436
10
17.75315
20
7.822435
10
17.73815
20
7.805436
10
17.73015
20
7.781435
10
17.73015
20
7.752436
10
17.73815
20
7.722435
10
17.75115
20
7.694436
10
17.83615
20
7.569436
10
17.87215
20
7.485435
10
17.88914
20
7.392436
10
17.88914
20
7.293436
10
17.86915
20
7.195436
10
17.85815
20
7.165435
42
-0.08508
10
17.83215
20
7.114436
10
17.81614
20
7.092435
42
-0.38437
10
17.59715
20
7.058435
10
17.57815
20
7.078435
42
-0.07687
10
17.51615
20
7.183435
10
17.50615
20
7.209435
42
0.52012
10
17.08915
20
7.373435
10
17.06715
20
7.352436
42
0.14762
10
16.97515
20
7.079435
10
16.97315
20
7.052435
10
16.96915
20
6.688436
10
16.97015
20
6.657435
42
0.31588
10
16.99314
20
6.582436
10
17.00714
20
6.588436
42
-0.14162
10
17.31415
20
6.830435
10
17.33715
20
6.836435
42
-0.07459
10
17.40615
20
6.845436
10
17.43015
20
6.845436
42
-0.13873
10
17.55315
20
6.816435
10
17.57715
20
6.799436
42
-0.37874
10
17.62715
20
6.485435
10
17.61215
20
6.458436
42
-0.23965
10
17.51615
20
6.400435
10
17.49515
20
6.399436
42
0.0982
10
17.26215
20
6.387435
10
17.23915
20
6.377436
10
17.21615
20
6.364436
10
17.19415
20
6.348435
10
17.17315
20
6.330435
10
17.11715
20
6.264435
10
17.07515
20
6.183435
10
17.04715
20
6.091435
10
17.02915
20
5.965436
10
17.02415
20
5.772436
42
0.03929
10
17.02615
20
5.703435
10
17.02715
20
5.670435
42
0.05434
10
17.03415
20
5.578435
10
17.05415
20
5.463436
10
17.08515
20
5.377436
10
17.09915
20
5.350435
10
17.11515
20
5.325436
10
17.13315
20
5.302435
10
17.15315
20
5.281435
10
17.17515
20
5.264435
10
17.19715
20
5.249435
10
17.22115
20
5.237435
10
17.24615
20
5.227436
10
17.27015
20
5.221436
10
17.33915
20
5.218435
10
17.40115
20
5.232435
10
17.46215
20
5.264435
10
17.52115
20
5.319436
10
17.57115
20
5.391436
10
17.60915
20
5.480435
10
17.61814
20
5.513435
10
17.62615
20
5.546435
10
17.64215
20
5.676435
10
17.65415
20
5.844435
10
17.66015
20
5.872436
42
-0.50974
10
17.78715
20
5.973435
10
17.80914
20
5.962435
42
-0.16197
10
17.93515
20
5.684435
10
17.94715
20
5.553435
10
17.94715
20
4.879436
10
17.94415
20
4.848435
10
17.92215
20
4.731435
42
0.11424
10
17.90915
20
4.672435
10
17.90615
20
4.642436
10
17.90715
20
4.613435
10
17.91415
20
4.587435
10
17.92715
20
4.567435
42
0.27257
10
18.13815
20
4.573435
10
18.15515
20
4.594435
42
0.1924
10
18.57015
20
6.727436
10
18.56415
20
6.758435
42
0.09301
10
18.29615
20
7.552435
10
18.28215
20
7.579435
42
0.07919
10
18.15515
20
7.786436
10
18.13815
20
7.807436
42
0.1251
10
18.09715
20
7.833436
10
18.07515
20
7.838436
10
17.79415
20
7.837435
0
LWPOLYLINE
5
A8
100
AcDbEntity
8
0
100
AcDbPolyline
90
58
70
1
43
0
10
7.327146
20
7.804435
42
-0.08483
10
7.353146
20
7.592435
10
7.356146
20
7.565435
10
7.462146
20
6.935435
10
7.479146
20
6.807436
10
7.507146
20
6.454435
10
7.508146
20
6.422435
42
-0.01145
10
7.510146
20
6.357435
10
7.511146
20
6.325436
42
-0.01296
10
7.513146
20
6.260436
10
7.514146
20
6.227436
42
-0.01564
10
7.514146
20
6.163435
10
7.514146
20
6.130435
42
-0.01989
10
7.513146
20
6.065435
10
7.512146
20
6.033435
42
-0.02419
10
7.510146
20
5.969435
10
7.509146
20
5.938436
42
-0.02865
10
7.505146
20
5.878436
10
7.484146
20
5.670435
10
7.454146
20
5.503436
10
7.446146
20
5.476436
42
-0.91252
10
7.356146
20
5.459435
10
7.341146
20
5.485435
42
-0.05183
10
7.199146
20
6.127436
10
7.195146
20
6.159435
10
7.152146
20
6.612435
10
7.149146
20
6.644435
10
7.121146
20
6.982435
10
7.116146
20
7.012435
10
7.109146
20
7.041435
42
0.49094
10
6.856146
20
7.181436
10
6.839146
20
7.164435
42
0.1612
10
6.758146
20
6.956436
10
6.755146
20
6.923435
10
6.731146
20
6.315435
10
6.721146
20
6.186435
10
6.672146
20
5.765435
10
6.632146
20
5.541435
10
6.605146
20
5.453435
42
-0.57063
10
6.544146
20
5.424436
10
6.529146
20
5.440435
42
-0.07951
10
6.444146
20
5.896435
10
6.441146
20
5.928435
10
6.425146
20
6.272436
10
6.425146
20
6.303435
10
6.428146
20
6.673435
10
6.438146
20
6.859436
10
6.484146
20
7.332436
10
6.488146
20
7.363435
42
-0.01343
10
6.495146
20
7.423435
10
6.511146
20
7.570436
10
6.510146
20
7.690435
42
-0.38668
10
6.577146
20
7.836435
10
6.599146
20
7.839436
10
7.252146
20
7.839436
10
7.274146
20
7.836435
10
7.295146
20
7.831436
10
7.312146
20
7.820436
0
LWPOLYLINE
5
A8
100
AcDbEntity
8
0
100
AcDbPolyline
90
18
70
1
43
0
10
6.948146
20
5.538435
10
6.956146
20
5.527435
10
6.963146
20
5.505435
10
7.046146
20
5.108436
10
7.114146
20
4.853436
10
7.153146
20
4.744435
42
-0.33292
10
7.163146
20
4.585435
10
7.147146
20
4.564435
42
-0.14576
10
7.105146
20
4.544436
10
7.082146
20
4.542436
10
6.827146
20
4.542436
10
6.804146
20
4.545435
42
-0.40378
10
6.735146
20
4.644435
10
6.738146
20
4.672435
42
0.04795
10
6.873146
20
5.145435
10
6.880146
20
5.177435
10
6.936146
20
5.523436
10
6.942146
20
5.537436
0
LWPOLYLINE
5
A8
100
AcDbEntity
8
0
100
AcDbPolyline
90
36
70
1
43
0
10
13.53215
20
7.440435
42
-0.16863
10
13.63015
20
7.358436
10
13.64515
20
7.334435
42
-0.09122
10
13.77315
20
6.772436
10
13.77715
20
6.739436
10
13.80415
20
6.348435
10
13.81315
20
6.186435
10
13.82015
20
5.825436
10
13.81215
20
5.661436
10
13.78315
20
5.476436
10
13.77615
20
5.447435
42
-0.0843
10
13.75815
20
5.394435
10
13.74515
20
5.369435
42
-0.11244
10
13.71315
20
5.320436
10
13.69415
20
5.300436
42
-0.38291
10
13.55015
20
5.287436
10
13.53215
20
5.301435
42
-0.14137
10
13.37415
20
5.709435
10
13.36915
20
5.740436
10
13.33415
20
6.078435
10
13.33215
20
6.109436
10
13.29915
20
6.719435
10
13.29915
20
6.752436
42
-0.02062
10
13.29915
20
6.815435
10
13.29915
20
6.846436
42
-0.02411
10
13.30015
20
6.906435
10
13.30115
20
6.936435
42
-0.03053
10
13.30515
20
6.996436
10
13.30715
20
7.027435
42
-0.03865
10
13.31315
20
7.090436
10
13.31715
20
7.122436
42
-0.04837
10
13.32715
20
7.185435
10
13.33315
20
7.216435
42
-0.27663
10
13.46115
20
7.431436
10
13.48515
20
7.440435
10
13.50915
20
7.443436
0
LWPOLYLINE
5
A8
100
AcDbEntity
8
0
100
AcDbPolyline
90
22
70
1
43
0
10
15.72315
20
7.804435
42
-0.12444
10
15.73015
20
7.766436
10
15.72715
20
7.742435
42
-0.01285
10
15.59515
20
7.436435
10
15.58415
20
7.408435
10
15.48515
20
7.083436
10
15.47715
20
7.053435
10
15.39915
20
6.730435
10
15.39315
20
6.701436
42
-0.27606
10
15.36715
20
6.635436
10
15.35915
20
6.647436
10
15.27215
20
6.996436
10
15.26315
20
7.027435
10
15.14515
20
7.455435
10
15.08815
20
7.618435
42
-0.08157
10
15.07115
20
7.665435
10
15.06315
20
7.689435
42
-0.4557
10
15.10615
20
7.834435
10
15.12715
20
7.838436
10
15.64015
20
7.839436
10
15.66215
20
7.837435
42
-0.17395
10
15.71415
20
7.817435
0
LWPOLYLINE
5
A8
100
AcDbEntity
8
0
100
AcDbPolyline
90
41
70
1
43
0
10
14.93515
20
6.710435
42
-0.06283
10
15.05315
20
6.427435
10
15.06215
20
6.399436
10
15.15115
20
6.083436
10
15.15915
20
6.053435
10
15.28615
20
5.579435
10
15.29515
20
5.553435
42
0.5863
10
15.43215
20
5.518435
10
15.44615
20
5.540435
10
15.45615
20
5.565435
10
15.46615
20
5.593435
10
15.61915
20
6.182436
10
15.62815
20
6.210435
10
15.74515
20
6.550436
10
15.75615
20
6.578435
42
-0.22518
10
15.82715
20
6.686435
10
15.83915
20
6.676435
42
-0.06376
10
15.84815
20
6.348435
10
15.84715
20
6.316435
10
15.81615
20
5.967435
10
15.78615
20
5.748435
10
15.71815
20
5.377436
10
15.71215
20
5.347435
10
15.58715
20
4.785436
10
15.57215
20
4.619435
10
15.56315
20
4.593435
10
15.55115
20
4.572435
42
-0.0873
10
15.47615
20
4.542436
10
15.31515
20
4.541435
42
-0.1037
10
15.24815
20
4.550436
10
15.22815
20
4.561435
42
-0.16425
10
15.17215
20
4.769435
10
15.16615
20
4.800436
10
15.03815
20
5.332436
10
15.03215
20
5.361435
10
14.97315
20
5.689435
10
14.94215
20
5.905436
10
14.90815
20
6.258435
42
-0.05956
10
14.89915
20
6.605435
10
14.90015
20
6.635436
42
-0.1978
10
14.92415
20
6.712435
0
LWPOLYLINE
5
A8
100
AcDbEntity
8
0
100
AcDbPolyline
90
138
70
1
43
0
10
10.27815
20
12.38944
42
0.29281
10
8.509146
20
11.06044
10
8.499146
20
11.05044
10
8.469146
20
11.05044
10
8.449146
20
11.06044
10
8.428145
20
11.07044
10
8.409146
20
11.10044
42
0.2219
10
7.769146
20
11.89044
42
0.20888
10
6.949146
20
11.88043
42
0.23891
10
6.509146
20
11.31044
42
0.275
10
6.749146
20
10.66044
42
0.19328
10
7.169146
20
10.55044
42
0.46026
10
7.509146
20
11.07044
42
0.31444
10
7.259146
20
11.27044
10
7.129146
20
11.26044
42
0.29283
10
6.949146
20
11.09044
10
6.939146
20
11.08044
10
6.919146
20
11.07044
10
6.899146
20
11.08044
10
6.899146
20
11.11044
42
-0.11953
10
6.919146
20
11.24044
10
6.959146
20
11.32044
42
-0.1942
10
7.229146
20
11.46044
10
7.399146
20
11.44044
42
-0.29296
10
7.779146
20
10.98044
10
7.779146
20
10.84044
10
7.759146
20
10.74044
42
-0.29511
10
7.079146
20
10.22044
42
-0.20407
10
6.399146
20
10.46044
42
0.34299
10
1.969146
20
11.68044
42
0.16906
10
0.3201458
20
10.16044
42
0.24345
10
0.3401459
20
7.450436
42
0.20328
10
1.869146
20
6.270435
10
1.889146
20
6.250435
10
1.889146
20
6.220436
10
1.889146
20
6.160436
10
1.879146
20
6.140435
42
0.27987
10
0.08014585
20
4.290435
42
0.28813
10
1.080146
20
1.281435
42
0.2339
10
4.089146
20
0.5014355
42
0.17011
10
6.139146
20
1.651435
10
6.349146
20
1.891436
42
-0.2749
10
7.229146
20
2.171435
42
-0.2493
10
7.769146
20
1.641436
10
7.779146
20
1.571435
10
7.779146
20
1.441435
42
-0.41742
10
7.209146
20
0.9514354
42
-0.1867
10
6.959146
20
1.101435
42
-0.2246
10
6.899146
20
1.351435
10
6.919146
20
1.361435
42
1.04871
10
7.519146
20
1.551435
42
0.18166
10
7.329146
20
1.791435
10
7.209146
20
1.851435
10
7.139146
20
1.861435
10
6.979146
20
1.861435
42
0.12581
10
6.729146
20
1.741435
42
0.40574
10
6.679146
20
0.7414355
42
0.32655
10
7.759146
20
0.5014355
42
0.19967
10
8.369145
20
1.181435
10
8.419146
20
1.311435
10
8.439146
20
1.321435
10
8.469146
20
1.331435
10
8.499146
20
1.331435
42
0.39666
10
11.11815
20
0.1014354
42
0.09839
10
11.97815
20
0.5514355
10
12.00815
20
0.5514355
42
0.1954
10
13.79815
20
0.02143545
42
0.26996
10
15.46815
20
1.301435
10
15.49815
20
1.311435
10
15.53815
20
1.311435
10
15.55815
20
1.301435
10
15.57815
20
1.271435
42
0.18779
10
16.13815
20
0.5514355
42
0.26132
10
17.08715
20
0.5514355
42
0.27708
10
17.48715
20
1.281435
42
0.26541
10
17.12715
20
1.821435
42
0.10689
10
16.84815
20
1.861435
42
0.41394
10
16.46815
20
1.381435
42
0.22717
10
16.62715
20
1.151435
10
16.67715
20
1.141436
10
16.74815
20
1.131435
42
0.09877
10
16.90715
20
1.151435
10
16.95715
20
1.181435
10
16.98715
20
1.221435
10
17.03815
20
1.321435
10
17.05715
20
1.331435
10
17.07715
20
1.341435
10
17.09715
20
1.331435
10
17.09715
20
1.301435
42
-0.18917
10
17.04715
20
1.111435
42
-0.16726
10
16.78715
20
0.9514354
42
-0.45056
10
16.21815
20
1.471435
42
-0.20138
10
16.39815
20
1.941435
42
-0.2302
10
16.99715
20
2.191435
42
-0.19751
10
17.61715
20
1.921435
42
0.35539
10
22.17715
20
0.7914354
42
0.15758
10
23.67715
20
2.251436
42
0.28469
10
23.44715
20
5.250435
42
0.16666
10
22.10715
20
6.140435
10
22.08715
20
6.150435
10
22.07715
20
6.170435
10
22.07715
20
6.220436
10
22.07715
20
6.240436
42
0.34335
10
23.99715
20
8.780436
42
0.21347
10
23.03715
20
11.00044
42
0.23202
10
20.13715
20
11.93044
42
0.17294
10
17.97715
20
10.88043
10
17.63715
20
10.50044
42
-0.30819
10
16.65715
20
10.28044
42
-0.16399
10
16.27815
20
10.64044
42
-0.22431
10
16.28715
20
11.20044
42
-0.16016
10
16.55815
20
11.43044
10
16.72715
20
11.46044
42
-0.14953
10
16.84815
20
11.44044
42
-0.20714
10
17.07715
20
11.22044
42
-0.12455
10
17.09715
20
11.09044
10
17.09715
20
11.07044
10
17.07715
20
11.06044
10
17.05715
20
11.07044
10
17.03815
20
11.08044
10
17.00714
20
11.15044
42
0.28513
10
16.80715
20
11.27044
10
16.68715
20
11.26044
42
0.24087
10
16.49815
20
11.10044
10
16.46815
20
11.02044
42
0.50739
10
16.95715
20
10.55044
42
0.21837
10
17.33715
20
10.75044
42
0.27298
10
17.45715
20
11.41044
42
0.29248
10
16.76715
20
11.95944
42
0.25709
10
15.86815
20
11.64044
42
0.11401
10
15.57815
20
11.12044
10
15.55815
20
11.10044
10
15.52815
20
11.09044
10
15.49815
20
11.09044
10
15.46815
20
11.11044
42
0.39048
10
12.88815
20
12.29944
42
0.09918
10
12.01815
20
11.85044
10
11.98815
20
11.85044
42
0.18365
0
ENDSEC
0
EOF
